MOVE BASS TAB

-----------------------------------------------------------------
Move - HUNTER-GATHERER (Click here to listen)
-----------------------------------------------------------------

Tuning: Drop Db

Intro & first verse

F#|---------------------------------------------------------------|x3
C#|---------------------------------------------------------------|
G#|0------------------------------0-------------------------------|
C#|-----5--3----5--0-------3--0--------5--3----5--0------3--0-----|

F#|---------------------------------------------------------------|
C#|----------------------------------------------------------3----|
G#|0------------------------------0-------------------------------|
C#|-----5--3----5--0-------3--0--------5--3----5--0-----0-1/3-3--0|

F#|---------------------------------------------------------------|x2
C#|---------------------------------------------------------------|
G#|0------------------------------0-------------------------------|
C#|-----5--3----5--0-------3--0--------5--3----5--0------3--0-----|

Pre-chorus

F#|---------------------------------------------------------------|
C#|---------------------------------------------------------------|
G#|0-0-0-0-0-------------0-0-0-0-0----3--5------------------------|
C#|------------2--3-----------------------------------------------|

Chorus

F#|---------------------------------------------------------------|
C#|---------------------------------------------------------------|
G#|---------------------------0--0-0--0-0-0--3--3-3--3-3-3--------|
C#|3--3--3-3-3--5--5-5--5-5-5-------------------------------------|

F#|-------------------------------------------5h7/11---11--11--11-|
C#|--------------------------------------5h7----------------------|
G#|---------------------------3/5--5-5----------------------------|
C#|3--3--3-3-3--5--5-5--5-5-5-------------------------------------|

F#|---------------------------------------------------------------|
C#|---------------------------------------------------------------|
G#|---------------------------0--0-0--0-0-0--3--3-3--3-3-3--------|
C#|3--3--3-3-3--5--5-5--5-5-5-------------------------------------|

F#|---------------------------------------------------------------|
C#|---------------------------------------------------------------|
G#|----------------------------3/5--5--5--5--5--5--5--5-----------|
C#|---3--3-3-3--5--5-5--5-5-5-------------------------------------|

Verse 2

F#|---------------------------------------------------------------|x3
C#|---------------------------------------------------------------|
G#|0------------------------------0-------------------------------|
C#|-----5--3----5--0-------3--0--------5--3----5--0------3--0-----|

Chorus

F#|---------------------------------------------------------------|
C#|---------------------------------------------------------------|
G#|---------------------------0--0-0--0-0-0--3--3-3--3-3-3--------|
C#|3--3--3-3-3--5--5-5--5-5-5-------------------------------------|

F#|-------------------------------------------5h7/11---11--11--11-|
C#|--------------------------------------5h7----------------------|
G#|---------------------------3/5--5-5----------------------------|
C#|3--3--3-3-3--5--5-5--5-5-5-------------------------------------|

F#|---------------------------------------------------------------|
C#|---------------------------------------------------------------|
G#|---------------------------0--0-0--0-0-0--3--3-3--3-3-3--------|
C#|3--3--3-3-3--5--5-5--5-5-5-------------------------------------|

F#|---------------------------------------------------------------|
C#|---------------------------------------------------------------|
G#|----------------------------3/5--5--5--5--5--5--5--5-----------|
C#|---3--3-3-3--5--5-5--5-5-5-------------------------------------|

Bridge

F#|---------------------------------------------------------------|
C#|---------------------------------------------------------------|
G#|0-0-0-0-0------0/12-12-12-12-12----0-0-0-0-0-------------------|
C#|-----------------------------------------------3/15/3-- 2--3---|

F#|---------------------------------------------------------------|
C#|---------------------------------------------------------------|
G#|0--0--0-0-0-0--0-0--0-0-0-0------------------------------------|
C#|----------------------------0-2-2-2-3--3-3--3-3-3--3-3-3-3-----|

F#|---------------------------------------------------------------|
C#|---------------------------------------------------------------|
G#|0--0--0-0-0-0--0-0--0-0-0-0---3-3-3/5--5-5--5-5-5--5-5-5-5-----|
C#|---------------------------------------------------------------|

F#|---------------------------------------------------------------|
C#|---------------------------------------------------------------|
G#|0--0--0-0-0-0--0-0--0-0-0-0------------------------------------|
C#|----------------------------0-2-2-2-3--3-3--3-3-3--3-3-3-3-----|


F#|-------------------------------------5-------------------------|
C#|-------------------------10------------------------------------|
G#|0--0--0-0-0-0--0-0--3/12----12--0--3---3/5--5-5--5-5-5--5-5-5-5|
C#|---------------------------------------------------------------|

Chorus

F#|---------------------------------------------------------------|
C#|---------------------------------------------------------------|
G#|---------------------------0--0-0--0-0-0--3--3-3--3-3-3--------|
C#|3--3--3-3-3--5--5-5--5-5-5-------------------------------------|

F#|-------------------------------------------5h7/11---11--11--11-|
C#|--------------------------------------5h7----------------------|
G#|---------------------------3/5--5-5----------------------------|
C#|3--3--3-3-3--5--5-5--5-5-5-------------------------------------|

F#|---------------------------------------------------------------|
C#|---------------------------------------------------------------|
G#|---------------------------0--0-0--0-0-0--3--3-3--3-3-3--------|
C#|3--3--3-3-3--5--5-5--5-5-5-------------------------------------|

F#|-----------------------------------------------5/11------------|
C#|---------------------------------------------7-----------------|
G#|----------------------------3/5--5--5--5--5--------------------|
C#|---3--3-3-3--5--5-5--5-5-5-------------------------------------|

 

killjoy lyrics

Verse

Don’t like your anger,

Don’t like the way you stress,

Sick of feeling helpless,

You are my killjoy,

Without you I feel,

My feet lift off the ground,

I’ll avoid,

Wasting my energy,

Going round and around,

 

Chorus

I don’t wanna talk, anymore,

I will walk away,

from every word you say,

Won’t waste my time in misery,

I wanna live my life, 

Every single day,

 

Verse 2

Your negative opinion,

Kept pushing me away,

The world is still spinning,

I’ll fill my world with joy,

 

Chorus

I don’t wanna talk, anymore,

I will walk away,

From every word you say,

Won’t waste my time in misery,

I wanna live my life,

Every single day,

 

Bridge 

I don’t know you, now,

I don’t want you, now,

I don’t need you, now,

I don’t know you, now,

Chorus

I don’t wanna talk, anymore,

I will walk away,

From every word you say,

I don’t wanna talk, anymore,

I will walk away,

From every word you say,

Won’t waste my time in misery,

I wanna live my life,

Every single day,

©2020 by Hunter-Gatherer. Rock band. England 

huntergathererbanduk@gmail.com